UKULELETANFOLYAM
2020. április 18-án
Iratkozz fel
a hírlevelünkre!
Vissza a teljes listához

Star Wars - Cantina Band

Steppenwolf - Born To Be Wild

Star Wars - Imperial March

Kapcsolódó blogbejegyzés: Ukulele Wars

Intro – |Am Am Am Fm|  x 4


    Am         Fm  Am   Fm  Am   (Am)        Fm            Am  
A |-0--0--0----0--3-0---0--3-0--|-7--7--7----8-3-3----0--3-0--|
E |-0--0--0----1--0-0---1--0-0--|-5--5--5----5—0-4----1--0-0--|
C |-----------------------------|-----------------------------|
g |-----------------------------|-----------------------------|

    Am                   Ebm                Fm                 Am  F    Am  
A |-12--0-0--12--11-10---9-8-9--|---6-5-4---3-2-3--|-----------3---0-3--7--|
E |-12--0-0--12----------9-9-9--|-7----------------|-1-4---1-4----------5--|
C |-----------------------------|------------------|-----------------------|
g |-----------------------------|------------------|-----------------------|

     F      Am           Ebm               Fm               Am    Fm   Am
A |--12-0-0-12---11-10---9-8-9--|---6-5-4---3-2-3--|------0-3-0----0-3--0--|
E |--12-0-0-12-----------9-8-9--|-8----------------|-1-4--1-0-0----1-0--0--|
C |-----------------------------|------------------|-----------------------|
g |-----------------------------|------------------|-----------------------|